อยากได้โน๊ตกีต้าร์คลาสสิคเพลง " romance " ที่เค้าชอบเล่นกันหนะครับ

ไม่ทราบว่าใครพอมี รบกวนหน่อยนะครับ อยากเล่นเหมือนคนอื่นเค้าบ้างหนะครับ ..แหะๆ

ขอบคุณล่วงหน้าครับ

จากคุณ : ฤษีข้ามน้ำ - [ 18 ต.ค. 49 11:43:35 ]

 
 

*** Advertisement ***


ความคิดเห็นที่ 1

ผมมีเป็นของเปียโน แต่คาดว่าก็คงเหมือนกันใช่มั้ยครับ
ส่งให้ทางเมล์ได้ครับ


จากคุณ : auriquelle de lasniere (Auriquelle de Lasniere) - [ 18 ต.ค. 49 12:42:49 ]
 
 

ความคิดเห็นที่ 2

เสริชใน google พอหาได้ครับ แต่ระวังไวรัสด้วยก็ดี

จากคุณ : at (a&t) - [ 18 ต.ค. 49 12:53:32 ]
 
 

ความคิดเห็นที่ 3

ขอด้วยสิคะ ของเปียโนน่ะ

จากคุณ : เต่าทองตัวที่ห้า - [ 18 ต.ค. 49 13:33:16 ]
 
 

ความคิดเห็นที่ 4

มี้ มี้ มี้ เร โด่ โด่ ที ลา ลา ฯลฯ คริคริ

จากคุณ : ฮิปโป-โป๊ เตมัส O.,o - [ 18 ต.ค. 49 15:19:01 ]
 
 

ความคิดเห็นที่ 5

มันจอบอกกันได้เหรอต้องสอนตัวๆเอาง่ะนิ้วไรงี้ง่ะมันไม่สวย
ในเน็ตบางทีเนื้อก็ไม่ค่อยตรงนะ
กีต้าร์คลาสสิคเพราะชอบๆมันมีเสน่ห์ง่ะยิ่งฟังแค่romanceก็เพราะเพลินแล้วเราว่ามีเสน่ห์ดีอะกีต้าร์โปร่งธรรมดาฟังแล้วก็โฮนะแต่คลาสสิคเราชอบมากกว่า


จากคุณ : ฟ - [ 18 ต.ค. 49 17:33:12 A:58.9.194.126 X: TicketID:122619 ]
 
 

ความคิดเห็นที่ 6

ตัดมาจากโปรแกรม Guitar Pro ครับ ไม่รู้จะดูรู้เรื่องหรือเปล่า

                               Romance de Amor                                


                                                                        An๔nimo
Trilha 1



     E  E  E  E  E  E  E  E     E  E  E  E  E  E  E  E  
E||---7--------7--------7-----|-----7--------5--------3--|
B||---------0--------0--------|--0--------0--------0-----|
G||*-----0--------0--------0--|--------0--------0--------|
D||*--------------------------|--------------------------|
A||---------------------------|--------------------------|
E||---0-----------------------|-----0--------------------|


 E  E  E  E  E  E  E  E     E  E  E  E  E  E  E  E  
--------3--------2--------|--0--------0--------3-----|
-----0--------0--------0--|--------0--------0--------|
--0--------0--------0-----|-----0--------0--------0--|
--------------------------|--------------------------|
--------------------------|--------------------------|
--------0-----------------|-----------0--------------|


 E  E  E  E   E   E  E   E     E  E   E  E  E   E   E  E  
-----7--------12~--------12--|--------12--------12~--------|
--0--------0----------0------|-----0---------0----------0--|
--------0----------0---------|--0---------0----------0-----|
-----------------------------|-----------------------------|
-----------------------------|-----------------------------|
---------------0~------------|-------------------0~--------|


  E  E  E  E  E  E  E  E     E  E  E  E  E  E  E  E  
--10--------8--------8-----|-----7--------5--------5--|
---------0--------0--------|--5--------5--------5-----|
------0--------0--------5--|--------5--------5--------|
---------------------------|--------------------------|
---------------------0-----|-----------------------0--|
---------------------------|--------------------------|


 E  E  E  E  E  Q    E     E  E  E  E  E  E  E  E  
--------7--------8----7--|--------8--------7--------|
-----5--------5----------|-----7--------7--------7--|
--5--------5-------------|--8--------8--------8-----|
-------------------------|--------------------------|
-------------------------|--------------------------|
----------------------7--|--------------------------|


  E  E  E  E  E  E  E  E     E  E   E  E  E  E  E  E  
--11--------8--------7-----|-----7~--------5--------3--|
---------7--------7--------|--7---------0--------0-----|
------8--------8--------8--|---------0--------0--------|
---------------------------|---------------------------|
---------------------------|---------------------------|
---7-----------------------|-----0~--------------------|


 E  E  E  E  E  E  E  E     E  E  E  E  E  E  E  E  
--------3--------2--------|--0--------2--------2-----|
-----0--------0--------0--|--------0--------0--------|
--0--------0--------0-----|-----0--------2--------2--|
--------------------------|--------------------------|
--------------------------|-----------2--------------|
--------0-----------------|--------------------------|


 E  E  E  E  E  E  E  E     E  E  E  E  E  E  E  E  
-----2--------2--------3--|--------2--0--------0-----|
--0--------0--------0-----|-----0-----------0--------|
--------2--------2--------|--2-----------0--------0--|
--------------1-----------|-----------2--------------|
--------------------------|--------------------2-----|
--------------------------|--------------------------|


                     NH                              
 E  E  E  E  Q       Q       E  E  E  E  E  E  E  E  
-----0--------0----<>12----|--4--------4--------4-----|
--0--------0-------<>12----|--------0--------0--------|
--------0----------<>12----|-----1--------1--------1--|
---------------------------|--------------------------|
---------------------------|--------------------------|
-----3--------0------------|--0-----------------------|


จากคุณ : odbc2000 - [ 18 ต.ค. 49 18:21:59 ]
 
 

ความคิดเห็นที่ 7

ได้เล้วขอบคุณครับ

จากคุณ : ฤ (ฤษีข้ามน้ำ) - [ 19 ต.ค. 49 12:02:49 ]
 
 



กระทู้ยอดนิยม

[กติกามารยาท] [Help & FAQ
ความคิดเห็น : คลิกที่นี่เพื่อใช้งาน icon
ชื่อ : ตรวจสอบสถานะของ member ที่นี่

ไฟล์ประกอบ : (ไม่เกิน 150 K / Member เท่านั้น / Preview ไม่ได้)
(gif, jpg, png, mid, wav, mp3, wma, swf)

Photo2Mobile : ยินดีให้นำไฟล์ประกอบนี้ (เฉพาะ gif, jpg, png) ไปให้บริการส่งรูปเข้ามือถือจอสี
(เพื่อป้องกันการถูกฟ้องละเมิดลิขสิทธิ์ การอนุญาตควรมาจากเจ้าของรูปโดยแท้จริง)
ยินดี ไม่ยินดี

วาดภาพประกอบ : คลิกเพื่อวาดภาพประกอบ
(ข้อควรระวัง : ต้องทำก่อนขั้นตอนอื่น มิฉะนั้นข้อความที่พิมพ์ไว้ และค่าที่เลือกจะหายไป - ใช้ได้เฉพาะสมาชิก)

แตกประเด็น : ต้องการแตกประเด็นจากกระทู้เดิมคลิกที่นี่

  : ไม่อนุญาตให้แสดงผลผ่านระบบมือถือ
 
(ส่งไฟล์ประกอบ และวาดภาพประกอบ Preview ไม่ได้)  
 
 

ข้อความหรือรูปภาพที่ปรากฏในกระทู้ที่ท่านเห็นอยู่นี้ เกิดจากการตั้งกระทู้และถูกส่งขึ้นกระดานข่าวโดยอัตโนมัติจากบุคคลทั่วไป ซึ่ง PANTIP.COM มิได้มีส่วนร่วมรู้เห็น ตรวจสอบ หรือพิสูจน์ข้อเท็จจริงใดๆ ทั้งสิ้น หากท่านพบเห็นข้อความ หรือรูปภาพในกระทู้ที่ไม่เหมาะสม กรุณาแจ้งทีมงานทราบ เพื่อดำเนินการต่อไป



Pantip-Cafe | Pantip-TechExchange | PantipMarket.com | PanTown.com | BlogGang.com